«На кончике ножа» группы НедРа на ThankYou.ru - скачать и слушать трек онлайн бесплатно
Послушать
Предыдущий трек
Слушать
Следующий трек
НедРа

На кончике ножа

На кончике ножа 2014

00:07:13
00:00
Поделиться с друзьями: е ч у ш
На кончике ножа
Год выпуска — 2014
НедРа
Рок
«На кончике ножа» - первая песня третьего альбома группы НедРа, который еще не получил рабочего названия. Запись производилась на новой д...
Композиции этого альбома
« Текст песни
Аккорды »
На кончике ножа 1
Я принёс на кончике ножа
То, что даже не произнести
Половинку неба от стрижа
Половинку моря отгрести
Если хочешь, я махну крылом
Если хочешь, я уйду на дно
Я передвигаюсь под углом
Я с планетой этой заодно, заодно

Я принёс такую тишину
Если крикнешь - дрогнет континент
Если слышишь, как во сне дышу
Значит, знаешь, как дрожит цемент
Я принёс такую пустоту
Не заполнишь, не заполонишь
Я несу сплошную наготу

Всего лишь лишь, всего лишь лишь

Припев:
И в заливе волны бьются,
Вонзаются в причал
Я такой же, я хочу кричать
Мы на оловянном блюдце
Ждём первого луча
Первого луча


2
Я принёс такую высоту
Потому и ухожу на дно
И прилив прикроет наготу
Молодых спокойных валунов
Если хочешь, будет Эверест
Или у подножия финал
Всё во мне как в 41-м Брест
Я жду сигнал, я жду сигнал

Припев:
И в заливе волны бьются
Вонзаются в причал
Я такой же, я хочу кричать
Мы на оловянном блюдце
Ждём первого луча
Первого луча

3
За петлицу я тебя тяну
За ресницу из окна луча
Я не знаю эту глубину
Но я знаю, где тебя включать
Я включаю дальний по пути
Если рядом ближний заодно

Снова ветер к вечеру утих
Идём на дно

Припев:
Но в заливе волны бьются
Вонзаются в причал
Я такой же, я хочу кричать
Мир на оловянном блюдце
Ждёт первого луча
Первого луча
На кончике ножа
Вступление
2 раза играть это:
1 --------------------|--------------------|--------------------|---------------------|
2 --------------------|--------------------|--------------------|--------2--------0--|
3 --------1-------1--|--------1-------1--|--------1-------1--|---------------------|
4 -----2-------2-----|-----2-------2-----|-----2-------2-----|-----2--------2-----|
5 --4-------4--------|--2-------2--------|--0-------0--------|--0--------0--------|
6 --------------------|--------------------|--------------------|---------------------|

потом:
1 --------------------|--------2-------0--|--------------------|---------------------|--------------------|--------2-------0
2 --------------------|--------0-------0--|--------------------|---------------------|--------------------|--------0-------0
3 --------2-------2--|--------------------|--------6-------6--|--------6--------4--|--------2-------2--|-----------------
4 -----2-------2-----|-----2-------2-----|-----6-------6-----|-----6--------6-----|-----2-------2-----|-----2-------2--
5 --0-------0--------|--0-------0--------|--4-------4--------|--4--------4--------|--0-------0--------|--0-------0-----
6 --------------------|--------------------|--------------------|---------------------|--------------------|-----------------

дальше так и так же играется первый куплет (где такие аккорды C#m | A7+/5-):
1 --------------------|---------------------|
2 --------5-------5--|--------4--------4--|
3 --------6-------6--|--------6--------6--|
4 -----6-------6-----|-----6--------6-----|
5 --4-------4--------|---------------------|
6 --------------------|--5--------5--------|

C#m_________A7+/5-___C#m__A7+/5-
Я принёс на кончике ножа
C#m_________A7+/5-______C#m__A7+/5-
То, что даже не произнести
C#m_______A7+/5-_____C#m__A7+/5-
Половинку неба от стрижа
C#m_______A7+/5-_____C#m__A7+/5-
Половинку моря отгрести
A9___________A9/6______C#m__A7+/5-
Если хочешь, я махну крылом
A9___________A9/6______C#m__A7+/5-
Если хочешь, я уйду на дно
A9___________A9/6______C#m__A7+/5-
Я передвигаюсь под углом
A7+*___________A*____A7+*__A*_A7+*__A6/5-
Я с планетой этой заодно, заодно

Я принёс такую тишину
Если крикнешь - дрогнет континент
Если слышишь, как во сне дышу
Значит, знаешь, как дрожит цемент
Я принёс такую пустоту
Не заполнишь, не заполонишь
A9
Я несу сплошную наготу
___________A7+*_A*____________A7+*__A6/5-
Всего лишь лишь, всего лишь лишь

Припев:
C#m_______H6sus________A6
И в заливе волны бьются,
___H6sus_______C#m
Вонзаются в причал
___________H6sus______A6___H6sus
Я такой же, я хочу кричать
C#m_______H6sus________A6
Мы на оловянном блюдце
______H6sus____C#m
Ждём первого луча
A6/5-*___A7+__G#
Первого луча

Проигрыш:
C#m|A7+/5-|C#m|A7+/5-|H6sus|A6|H6sus|A6|

Я принёс такую высоту
Потому и ухожу на дно
И прилив прикроет наготу
Молодых спокойных валунов
Если хочешь, будет Эверест
Или у подножия финал
Всё во мне как в 41-м Брест
Я жду сигнал, я жду сигнал

Припев:
И в заливе волны бьются
Вонзаются в причал
Я такой же, я хочу кричать
Мы на оловянном блюдце
Ждём первого луча
A6/5-*___A7+__A7+/9
Первого луча

С#m7*_____C#m7/H___A7+/9__A7+
За петлицу я тебя тяну
С#m7*_____C#m7/H___A7+/9__A7+
За ресницу из окна луча
С#m7*______C#m7/H__A7+/9__A7+
Я не знаю эту глубину
С#m7*_____C#m7/H________A7+/9__A7+
Но я знаю, где тебя включать
A9_________A9/6________C#m__A7+/5-
Я включаю дальний по пути
A9_________A9/6_______C#m__A7+/5-
Если рядом ближний заодно
A9____________________E
Снова ветер к вечеру утих
A7+*________A*_A7+*_A6/5-
Идём на дно

Припев:
Но в заливе волны бьются
Вонзаются в причал
Я такой же, я хочу кричать
Мир на оловянном блюдце
Ждёт первого луча
Первого луча

Проигрыш:
C#m|A7+/5-|C#m|A7+/5-|H6sus|A6|H6sus|A6
C#m|A7+/5-|C#m|A7+/5-|H6sus|A6|H6sus|A7+*_A9*

Я принёс на кончике ножа
То, что даже не произнести
Половинку неба от стрижа
Половинку моря отгрести
Половинку неба от стрижа
Половинку моря отгрести

С#m______x46650
A7+/5-____5x6640
A9________x02200
A9/6______x02202
A7+*_______x07990
A*________x079100
A6/5-_____x07870
A6/5-*____x04240
A6________5x4650
H6sus_____7x6870

С#m7*_____x42100
C#m7/H____x22100
A7+/9_____x02100
A7+_______x02120
A9*_______х07909
_______________


Отправить Отменить
Присоединяйся к нам
@thankyou_ru
6111 Followers
Канал ThankYou.ru
на YouTube.com
Канал ThankYou.ru
на instagram.com
Виджет ThankYou.ru
на Яндексе
Официальный блог
ThankYou.ru
Блог ThankYou.ru
на LiveJournal.com
Подписка на новости
ThankYou.ru

артист
Поздравляем!
Вы скачиваете: !!!
автор:
На нашем сайте у вас всегда есть
возможность отблагодарить музыканта
или писателя, воспользовавшись кнопкой
Спасибо, что вы используете наш способ поддержки людей, которые вас вдохновляют!
ѳ
  • Очередь
  • Плейлисты
  • Радио
  • Аудиокниги
ѳ
  • Текст
Альбом группы
Новый плейлист
Сохранить
Добавить к плейлисту
Друге плейлисты ?
Свернуть ?
ЧВ медиатеке уже есть плейлист с таким названием.

Заменить существующий плейлист?
Нет Да
4:11
P T O
 
07:11
00:00
W a
ј
ј
Б
u
ђ
"
:)