«Пыль» группы НедРа на ThankYou.ru - скачать и слушать трек онлайн бесплатно
Послушать
Предыдущий трек
Слушать
Следующий трек

00:03:13
00:00
Поделиться с друзьями: е ч у ш
Точки на щеках весны
Год выпуска — 2008
НедРа
Рок
Сольный альбом лидера группы «НедРа» Алексея Вдовина записывался в Брянске. Музыкант задался целью зафиксировать как можно больше материал...
« Текст песни
Аккорды »
Пыль Тихая птица ночь
Светлая птица грусть
Долгой дороги дочь
Веточки хруст
Перевал
Тают огни внизу

Рядом сестра печаль
Алый цветок в руке
Шаль на твоих плечах
Но вдалеке
Пароход
Берег пьет пустоту

Пыль, пыль
Упаду, где вслепую закаты целуют ковыль
И все… и все.

Пой, пой
Как подбитая ласточка перед отлетом домой
Пусть ждут
Ты единственный, кто не пропил именной парашют
Пусть нет
Никого на волне, нет сигнала, не слышен ответ
Пой, пой
Тишине, и все.



Вступление:
Em|D7

Em рифф-Em
Тихая птица ночь

Am рифф-Am
Светлая птица грусть

Em рифф-Em
Долгой дороги дочь

Am Am9 Am Am9
Веточки хруст

G D G
Перевал, перевал, перевал

C Am7 Am7/G
Тают огни внизу

Em рифф-Em
Рядом сестра печаль

Am рифф-Am
Алый цветок в руке

Em рифф-Em
Шаль на твоих плечах

Am Am9 Am Am9
Но вдалеке

G
Пароход

Hm D D*
Берег пьет пустоту

Припев:

Em* Am6/9
Пыль, пыль

D7/6 Em
Упаду, где вслепую закаты целуют ковыль

Am6 D7/6 рифф-Em-2
И всё…

Am6 Am7 Em
и всё.

Проигрыш:
С С7+| F#7(1)|Am6/5- Cdim|Em Em/G|C C7+|F#7(2)|H7sus(1) H7sus(2)

Em* Am6/9
Пой, пой

D7/6 Em*
Как подбитая ласточка перед отлетом домой

Am6/9
Пусть ждут

D7/6 Em*
Ты единственный, кто не пропил именной парашют

Am6/9
Пусть нет

D7/6 Em
Никого на волне, нет сигнала, не слышен ответ

Am6 Em
Пой, пой

Am6 D7/F# D7/H рифф-Em-2 Am рифф-Em-2 Am Em
Тишине, и всё, и всё, и всё.

Проигрыш:
Am6/9|G|Am D7/F#|C|C|C|D7/F#|Em

рифф-Em:
1---3---3---3---2------0---2---0---2---2---2---0------0---0---0
2---0---0---0---0------0---0---0---0---0---0---1------1---0---0
3---0---0---0---0------0---0---0---0---0---0---0------0---0---0
4---2---2---2---2------2---2---2---2---2---2---2------2---2---2
5---2---2---2---2------2---2---2---2---2---2---2------2---2---2
6---0---0---0---0------0---0---0---0---0---0---0------0---0---0

рифф-Am:
1---3---3---3---2------0---2---0---0---0---0---0------0---0---0
2---1---1---1---1------1---1---1---0---0---0---0------0---0---0
3---2---2---2---2------2---2---2---2---2---2---2------2---2---2
4---2---2---2---2------2---2---2---2---2---2---2------2---2---2
5---0---0---0---0------0---0---0---0---0---0---0------0---0---0
6--------------------------------------------------------------

рифф-Em-2 повторяется 2 раза:
1---3---3---3---0------0---0---0
2---0---0---0---1------1---0---0
3---0---0---0---0------0---0---0
4---2---2---2---2------2---2---2
5---2---2---2---2------2---2---2
6---0---0---0---0------0---0---0

D* xx0235
Em* 079080
Am6/9 x04505
D7/6 x54505
Am6 x02212
C7+ x35453
F#7(1) x44350
F#7(2) x98970
Am6/5- x04240
Cdim x34240
H7sus(1) x97900
H7sus(2) x97800
D7/F# 2x0212
D7/H x20212

(декабрь, 2007)
Пыль
Вступление:  
Em|D7 

Em             рифф-Em 
Тихая птица ночь

Am                рифф-Am
Светлая птица грусть

Em                рифф-Em
Долгой дороги дочь

Am      Am9  Am Am9 
Веточки хруст 

G             D       G 
Перевал, перевал, перевал 

C             Am7  Am7/G 
Тают огни внизу 

Em             рифф-Em 
Рядом сестра печаль 

Am                рифф-Am 
Алый цветок в руке 

Em                рифф-Em   
Шаль на твоих плечах 

Am     Am9  Am Am9 
Но вдалеке 


Пароход 

Hm              D  D* 
Берег пьет пустоту 

Припев:

Em*   Am6/9 
Пыль, пыль 

D7/6                                Em 
Упаду, где вслепую закаты целуют ковыль 

Am6  D7/6  рифф-Em-2 
И всё…  

Am6 Am7 Em 
и всё. 

Проигрыш: 
С С7+| F#7(1)|Am6/5- Cdim|Em Em/G|C C7+|F#7(2)|H7sus(1) H7sus(2) 

Em* Am6/9 
Пой, пой 

D7/6                                  Em*  
Как подбитая ласточка перед отлетом домой 

       Am6/9 
Пусть ждут 

     D7/6                                   Em* 
Ты единственный, кто не пропил именной парашют 

     Am6/9 
Пусть нет  

D7/6                                       Em 
Никого на волне, нет сигнала, не слышен ответ 

Am6  Em 
Пой, пой  

Am6  D7/F# D7/H рифф-Em-2 Am рифф-Em-2 Am Em 
Тишине, и всё, и всё, и всё. 

Проигрыш: 
Am6/9|G|Am D7/F#|C|C|C|D7/F#|Em 

рифф-Em: 
1---3---3---3---2------0---2---0---2---2---2---0------0---0---0
2---0---0---0---0------0---0---0---0---0---0---1------1---0---0
3---0---0---0---0------0---0---0---0---0---0---0------0---0---0
4---2---2---2---2------2---2---2---2---2---2---2------2---2---2
5---2---2---2---2------2---2---2---2---2---2---2------2---2---2
6---0---0---0---0------0---0---0---0---0---0---0------0---0---0

рифф-Am: 
1---3---3---3---2------0---2---0---0---0---0---0------0---0---0
2---1---1---1---1------1---1---1---0---0---0---0------0---0---0
3---2---2---2---2------2---2---2---2---2---2---2------2---2---2
4---2---2---2---2------2---2---2---2---2---2---2------2---2---2
5---0---0---0---0------0---0---0---0---0---0---0------0---0---0
6--------------------------------------------------------------

рифф-Em-2 повторяется 2 раза: 
1---3---3---3---0------0---0---0
2---0---0---0---1------1---0---0
3---0---0---0---0------0---0---0
4---2---2---2---2------2---2---2
5---2---2---2---2------2---2---2
6---0---0---0---0------0---0---0

D*       xx0235 
Em*      079080 
Am6/9    x04505 
D7/6     x54505 
Am6      x02212 
C7+      x35453 
F#7(1)   x44350 
F#7(2)   x98970 
Am6/5-   x04240  
Cdim     x34240 
H7sus(1)  x97900 
H7sus(2)  x97800 
D7/F#    2x0212 
D7/H     x20212 

(декабрь, 2007)


Отправить Отменить
Присоединяйся к нам
@thankyou_ru
6111 Followers
Канал ThankYou.ru
на YouTube.com
Канал ThankYou.ru
на instagram.com
Виджет ThankYou.ru
на Яндексе
Официальный блог
ThankYou.ru
Блог ThankYou.ru
на LiveJournal.com
Подписка на новости
ThankYou.ru

артист
Поздравляем!
Вы скачиваете: !!!
автор:
На нашем сайте у вас всегда есть
возможность отблагодарить музыканта
или писателя, воспользовавшись кнопкой
Спасибо, что вы используете наш способ поддержки людей, которые вас вдохновляют!
ѳ
  • Очередь
  • Плейлисты
  • Радио
  • Аудиокниги
ѳ
  • Текст
Альбом группы
Новый плейлист
Сохранить
Добавить к плейлисту
Друге плейлисты ?
Свернуть ?
ЧВ медиатеке уже есть плейлист с таким названием.

Заменить существующий плейлист?
Нет Да
4:11
P T O
 
07:11
00:00
W a
ј
ј
Б
u
ђ
"
:)